Close
Log On User Log On

Josh Woodward: Creative Commons Music

Frannie

Download MP3

Buy From iTunes
Download Free

Also available: Instrumental Mix

Video

Lyrics

Steel hair and a wheelchair, I'm living day by day
My mind is getting slower and my body's in decay 
But frannie, you're still beautiful, just like the day we met
I still know that you're coming when I see your silhouette

My legs can't hold my body and my arms are both so weak
The kids brush me away like I'm a dusty old antique
But frannie, you still look at me like I am 25
You're still my blushing bride and that's what's keeping me alive

    I ain't getting any younger
    And frannie, you're older too
    But I ain't lost my hunger
    I am still the one who waits for you, and
    I'll be here from this day on
    Until they stick me in the lawn
    Yeah, I'll be here

There's no time to waste now trying to tell the world goodbye
Yesterday's so far away and tomorrow's all a lie
So frannie, take my hand and let's go live another day
It might not be our last, but it's a step along the way

    I ain't getting any younger
    And frannie, you're older too
    But I ain't lost my hunger
    I am still the one who waits for you, and
    I'll be here from this day on
    Until they stick us in the lawn
    Yeah, I'll be here

Tablature

Tuning: Standard, capo 4, key of C.

Intro/verse:

--------------------------
--1\0-----0----------0----
--0---0-2---2-0---0----0--
--2--2-----------0----0---
--3-----------------------
--------2------3---3------

--------------------------
--1\0-----0----3-----3----
--0---0-2---2-0---0----0--
--2--2-----------0----0---
--3-----------------------
--------2------3---3------

--------------------------
--1\0-----0----------0----
--0---0-2---2-0---0----0--
--2--2-----------0----0---
--3-----------------------
--------2------3---3------

--------------------------
----0-----0---------------
------0-----2-0--0--0-0---
-----2-----0----0----0----
--------------------------
--0-----2-----3---3-------

End of verse:  x3201x  x3200x  x320xx

Chorus:  
    8x008x  7x078x  2x023x  3x000x
    8x008x  7x078x  x32302
    022000  xx0232  x3201x  x3200x  x320xx

Played LiveFull Statistics

Sharing

Wanna share this song with your friends?

Discuss
  Discussion: Frannie

Brandon (anon) · 4 years ago
I just discovered you like...a week ago, and I love you SO much! Ahh! Is there any way that you could put these tabs up? I love guitar, and I would tell everyone about you and play it for them. Or maybe you could just make a book of tabs/chords and sell them? By the way, I cannot wait for your new album. It's going to be great! Thanks a lot!
Josh Woodward Back · 4 years ago

Thanks so much! And no problem, here you go: http://www.joshwoodward.com/song/Frannie#tab

You must first create an account to post.