She Lost Her Wings

< Back to All Songs

Download Song

Epic Bundle

Want the full-quality FLAC version of this song, and 250+ more, with gobs of bonus material for $40? (more info)

Royalty-Free License

Want to buy a license to use this song in your video projects and advertisements, attribution-free, for $20? (more info)

Video

Lyrics

Her children sleep, the moments creep away
In stale rooms, with diesel fume malaise

	The sirens and lights, they pierced the night
	Stirring up a sleeping appetite

When Katie spoke, of crimson smoke and wings 
The meadowlarks, in ghetto parks would sing

	The melody would echo through the air
	And travel through the window to her chair

		In old shoes, the same views
		The gravity of life to weigh her down
		In gray dreams, the sky seems
		Larger than it was, or is it because 
		She lost her wings 

She can't recall, her steady fall from grace
But she was down, on solid ground to stay

	And somewhere in the journey she found peace
	In trading all the dreams for guarantees

		Chorus

		Solo

		Chorus

The sycamore is there no more to climb
But still she dreams, of quiet streams and flying

Tablature & Chords

Standard tuning, capo 5

Intro
  C                               D/F#
--0----------------------------------
------3---1-0-----------------0---3--
-----------------0--------0-2-----2--
------------------------2---------0--
--3---3---3---3---3---3---3---3------
----------------------------------2--


Verse:

  G                               C/G
-----------------------------------------------------------------
----------------------------------1------------------------------
----0---------------0-------------0------------------------------
--2-----0---------2-----0---------2------------------------------
-----------------------------------------------------------------
--3---3---3---3---3---3---3---3---3---3---3---3---3---3---3---3--

  G                               C/G
--------------------------------------------------3---------------
----------------------------------1------------------------------
----0---------------0-------------0------------------------------
--2-----0---------2-----0---------2------------------------------
-----------------------------------------------------------------
--3---3---3---3---3---3---3---3---3---3---3---3---3---3---3---3--

Then Am (x02210), C/G (3x201x), D/F# (2x023x)  twice



Chorus:
G    D/F#   Em   D/F#
G    D/F#   (intro riff)


Solo:
Em   C      G    D/F#
Em   C      D

Song Data

Similar Songs
Song Tags
Musical Information
Key: C Major
Tempo: 101 bpm
Meter: 4/4 Straight
Length: 5:19
Released Mar 27, 2013
License