Close
Log On User Log On

Josh Woodward: Creative Commons Music

Flypaper

Download MP3

Video

Lyrics

Instrumental

Tablature

Tuning: Standard, no capo. The video is in Open D (DADF#AD) tuning.

Album Version (Standard Tuning)

Verse:
--2-------------3-----------2---------3-----------------
--3-------------3-----------3---------3------3----------
--2-------------0-----------2---------0------3----------
--0-------------0-----------0---------0------0----------
-------5--------2-----5-7-5------5----2------x----------
-----/7-7-5-0---0---/7---------/7-7-5-0--0-2-3----------

--2---------------------3-----------2---------3---------
--3---------------------3-----------3---------3------3--
--2---------------------0-----------2---------0------3--
--0--------------7------0-----------0---------0------0--
-------5-7-5-7/9---9\7--2-----5-7-5------5----2------x--
-----/7------0---/7---0-0-----/7-7-5-0--0-2-3-----------

"Chorus:"
D/F#  G   A  (x3)

End:
Bm7  A  G (x4)
D

The second verse is similar to the first, just with an improvised solo.

Played LiveFull Statistics

Played at 1 out of 7 shows since introduction (14%)
Played at 1 out of 5 non-open mic shows since introduction (20%)
There have been 6 show(s) since the last play.

Sharing

Wanna share this song with your friends?

Discuss
  Discussion: Flypaper

algorista (anon) · 4 years, 7 months ago
Hi Josh,
I'm from Brasil and i like too much your work !
I want the chords for music Flypaper to learn play if you like.
Thanks.

You must first create an account to post.