Close
Log On User Log On

Josh Woodward: Creative Commons Music

Crazy Glue

Download MP3

Also available: Instrumental Mix

Video

Lyrics

There's no gravity that sucked me in your orbit
There's no magnet that was in your heart
The one restriction was the friction that was keeping us
A little too far apart

Why fight it, I was secretly delighted
I gave chase but then I let you win
You felt lovely when you loved me like a fool
But now I can't let go of your skin
You know that,

	I never knew
	That you, are, crazy glue, my darling
	And I'm stuck to you
	I am cozy and I don't gonna wiggle loose

You're honey like a finger in the beehive
The bees are buzzing in a tizzy fit
They're stinging but I'm singing like a fool
Cuz you're as sweet as a banana split

You're sticky like a hippie in the summer
You're like syrup in the slushie tray
One touch of you and I will never leave
Cuz I believe that I can't get away
You know that
  
	[Chorus]

Hold onto me
And hand in hand we'll follow
Hold onto me
As if you had a choice

Tablature

Tuning: Standard, Capo 8

Intro/Verse:
-------------------------------------------------------------------
------0---------------1---0-----------0---------------0------------
----------2-0---------------0-------------2-0-----2-----2----------
----------------0---------------2---------------0-----------0---0--
------------------3---3---3---3------------------------------------
--3---3---3---3-------------------3---3---3---3---2---2---2---2----


-------------------------------------------------------------------
------0---------------1---0-------0---0-----0-----------0----------
----------2-0---------------0-------------2---2-0-----------0---0--
----------------0---------------2----------------------------------
------------------3---3---3---3-------------------3---3---3---3----
--3---3---3---3-------------------0---0---2---2--------------------


-------------------------------------------------------------------
------0---------------1---0-----------0---------------0------------
----------2-0---------------0-------------2-0-----2-----2----------
----------------0---------------2---------------0-----------0---0--
------------------3---3---3---3------------------------------------
--3---3---3---3-------------------3---3---3---3---2---2---2---2----


-------------------------------------------------------------------
------0---------------1---0-------0---0-----0---------0---1---3----
----------2-0---------------0-------------2---2-0------------------
----------------0---------------2----------------------------------
------------------3---3---3---3---------------------------0---2----
--3---3---3---3-------------------3---3---2---2---3---3------------

Chorus:

------0---3-0-------------------------0---3-0----------------------
------------------3---------3-------------------3-----------0------
------------------------0-------0-----------------------0-3--------
-------------------------------------------------------------------
--3---3---3---3-------------------3---3---3---3--------------------
------------------3---3---3---3-------------------3---3---3---3----

------0---3-0------------------------------------------------------
------------------3-----0---------0---0-----0----------------------
----------------------------0---0---------2---2---0----------------
-------------------------------------------------------------------
--3---3---3---3----------------------------------------------------
------------------3---3---3---3---3---3---2---2---3---3---3---3----

Played LiveFull Statistics

Played at 1 out of 1 shows since introduction (100%)
Played at 1 out of 1 non-open mic shows since introduction (100%)
There have been 0 show(s) since the last play.

Sharing

Wanna share this song with your friends?

Discuss
  Discussion: Crazy Glue

Justyna (anon) · 1 year, 11 months ago
Are you genius or what? Every song of this album, so far (I'm listening to it now, and write comments as I listen) is perefect! You just put a big smile on my face! :)
Nikolai the viking (anon) · 1 year, 10 months ago
Thanks for all your music. I appreciate the tabs as well since i play guitar :) 
Ruby (anon) · 1 year, 6 months ago
I'm going to be using some of your instrumental music in my upcoming Youtube videos, thanks so much! I'll link this website in the description of it :)
Will (anon) · 6 months ago
OH GOODNESS! this song is wonderful! I'm going to use this in my youtube videos (: Thank you!  

You must first create an account to post.